ISO-10303-21;
HEADER;
FILE_DESCRIPTION (( 'STEP AP214' ),
    '1' );
FILE_NAME ('FSM_Klemmensteg_unten_rechts.STEP',
    '2026-01-27T08:26:26',
    ( '' ),
    ( '' ),
    'SwSTEP 2.0',
    'SolidWorks 2024',
    '' );
FILE_SCHEMA (( 'AUTOMOTIVE_DESIGN' ));
ENDSEC;

DATA;
#1 = DIRECTION ( 'NONE',  ( -0.000000000000000000, -0.000000000000000000, -1.000000000000000000 ) ) ;
#2 = EDGE_CURVE ( 'NONE', #149, #222, #40, .T. ) ;
#3 = ORIENTED_EDGE ( 'NONE', *, *, #2, .F. ) ;
#4 = MECHANICAL_DESIGN_GEOMETRIC_PRESENTATION_REPRESENTATION (  '', ( #216 ), #187 ) ;
#5 = LINE ( 'NONE', #43, #21 ) ;
#6 = ORIENTED_EDGE ( 'NONE', *, *, #12, .T. ) ;
#7 = CARTESIAN_POINT ( 'NONE',  ( 0.000000000000000000, 64.00000000000000000, 50.00000000000000000 ) ) ;
#8 = AXIS2_PLACEMENT_3D ( 'NONE', #48, #180, #143 ) ;
#9 =( REPRESENTATION_RELATIONSHIP ('NONE','NONE', #61, #164 ) REPRESENTATION_RELATIONSHIP_WITH_TRANSFORMATION ( #220 )SHAPE_REPRESENTATION_RELATIONSHIP( ) );
#10 = CARTESIAN_POINT ( 'NONE',  ( 0.000000000000000000, 64.00000000000000000, 50.00000000000000000 ) ) ;
#11 = PLANE ( 'NONE',  #210 ) ;
#12 = EDGE_CURVE ( 'NONE', #54, #222, #71, .T. ) ;
#13 =( LENGTH_UNIT ( ) NAMED_UNIT ( * ) SI_UNIT ( .MILLI., .METRE. ) );
#14 = APPLICATION_CONTEXT ( 'automotive_design' ) ;
#15 = PRODUCT_DEFINITION_FORMATION_WITH_SPECIFIED_SOURCE ( 'ANY', '', #96, .NOT_KNOWN. ) ;
#16 = VERTEX_POINT ( 'NONE', #140 ) ;
#17 = EDGE_LOOP ( 'NONE', ( #85, #209, #57, #93 ) ) ;
#18 = VERTEX_POINT ( 'NONE', #91 ) ;
#19 = ORIENTED_EDGE ( 'NONE', *, *, #211, .F. ) ;
#20 = DIRECTION ( 'NONE',  ( -0.000000000000000000, -0.000000000000000000, -1.000000000000000000 ) ) ;
#21 = VECTOR ( 'NONE', #173, 1000.000000000000000 ) ;
#22 = CARTESIAN_POINT ( 'NONE',  ( 391.9999999999954525, 0.000000000000000000, 0.000000000000000000 ) ) ;
#23 = APPLICATION_CONTEXT ( 'automotive_design' ) ;
#24 =( LENGTH_UNIT ( ) NAMED_UNIT ( * ) SI_UNIT ( .MILLI., .METRE. ) );
#25 = PRODUCT_RELATED_PRODUCT_CATEGORY ( 'part', '', ( #96 ) ) ;
#26 = LINE ( 'NONE', #7, #53 ) ;
#27 = CARTESIAN_POINT ( 'NONE',  ( 0.000000000000000000, 64.00000000000000000, 50.00000000000000000 ) ) ;
#28 = UNCERTAINTY_MEASURE_WITH_UNIT (LENGTH_MEASURE( 1.000000000000000082E-05 ), #13, 'distance_accuracy_value', 'NONE');
#29 = ADVANCED_FACE ( 'NONE', ( #88 ), #150, .T. ) ;
#30 = CARTESIAN_POINT ( 'NONE',  ( 0.000000000000000000, 64.00000000000000000, 0.000000000000000000 ) ) ;
#31 = SURFACE_STYLE_FILL_AREA ( #142 ) ;
#32 = ADVANCED_BREP_SHAPE_REPRESENTATION ( '', ( #219, #69 ), #145 ) ;
#33 = CONTEXT_DEPENDENT_SHAPE_REPRESENTATION ( #9, #151 ) ;
#34 = APPLICATION_PROTOCOL_DEFINITION ( 'draft international standard', 'automotive_design', 1998, #56 ) ;
#35 = PRODUCT_DEFINITION ( 'UNKNOWN', '', #15, #99 ) ;
#36 = COLOUR_RGB ( '',0.7921568627450980005, 0.8196078431372548767, 0.9333333333333333481 ) ;
#37 = EDGE_CURVE ( 'NONE', #223, #188, #176, .T. ) ;
#38 = EDGE_LOOP ( 'NONE', ( #104, #58, #111, #41 ) ) ;
#39 = DIRECTION ( 'NONE',  ( 0.000000000000000000, -1.000000000000000000, 0.000000000000000000 ) ) ;
#40 = LINE ( 'NONE', #22, #184 ) ;
#41 = ORIENTED_EDGE ( 'NONE', *, *, #154, .F. ) ;
#42 = PRODUCT_DEFINITION_CONTEXT ( 'detailed design', #23, 'design' ) ;
#43 = CARTESIAN_POINT ( 'NONE',  ( 391.9999999999954525, 73.00000000000000000, 0.000000000000000000 ) ) ;
#44 = CARTESIAN_POINT ( 'NONE',  ( 391.9999999999954525, 0.000000000000000000, 0.000000000000000000 ) ) ;
#45 = DIRECTION ( 'NONE',  ( 1.000000000000000000, 0.000000000000000000, -0.000000000000000000 ) ) ;
#46 = UNCERTAINTY_MEASURE_WITH_UNIT (LENGTH_MEASURE( 1.000000000000000082E-05 ), #24, 'distance_accuracy_value', 'NONE');
#47 = PLANE ( 'NONE',  #169 ) ;
#48 = CARTESIAN_POINT ( 'NONE',  ( 0.000000000000000000, 64.00000000000000000, 50.00000000000000000 ) ) ;
#49 = EDGE_CURVE ( 'NONE', #16, #54, #112, .T. ) ;
#50 = VECTOR ( 'NONE', #20, 1000.000000000000000 ) ;
#51 = CARTESIAN_POINT ( 'NONE',  ( 0.000000000000000000, 0.000000000000000000, 0.000000000000000000 ) ) ;
#52 = ORIENTED_EDGE ( 'NONE', *, *, #207, .F. ) ;
#53 = VECTOR ( 'NONE', #131, 1000.000000000000000 ) ;
#54 = VERTEX_POINT ( 'NONE', #155 ) ;
#55 = EDGE_LOOP ( 'NONE', ( #192, #185, #138, #189 ) ) ;
#56 = APPLICATION_CONTEXT ( 'automotive_design' ) ;
#57 = ORIENTED_EDGE ( 'NONE', *, *, #217, .T. ) ;
#58 = ORIENTED_EDGE ( 'NONE', *, *, #49, .F. ) ;
#59 = FACE_OUTER_BOUND ( 'NONE', #17, .T. ) ;
#60 = CARTESIAN_POINT ( 'NONE',  ( 391.9999999999954525, 73.00000000000000000, 0.000000000000000000 ) ) ;
#61 = SHAPE_REPRESENTATION ( 'FSM_Klemmensteg_unten_rechts', ( #201, #101 ), #79 ) ;
#62 = CARTESIAN_POINT ( 'NONE',  ( 0.000000000000000000, 0.000000000000000000, 50.00000000000000000 ) ) ;
#63 = DIRECTION ( 'NONE',  ( 0.000000000000000000, 1.000000000000000000, 0.000000000000000000 ) ) ;
#64 =( NAMED_UNIT ( * ) SI_UNIT ( $, .STERADIAN. ) SOLID_ANGLE_UNIT ( ) );
#65 = ADVANCED_FACE ( 'NONE', ( #59 ), #127, .T. ) ;
#66 = CARTESIAN_POINT ( 'NONE',  ( 0.000000000000000000, 0.000000000000000000, 0.000000000000000000 ) ) ;
#67 = DIRECTION ( 'NONE',  ( -0.000000000000000000, 0.000000000000000000, -1.000000000000000000 ) ) ;
#68 = ORIENTED_EDGE ( 'NONE', *, *, #109, .T. ) ;
#69 = AXIS2_PLACEMENT_3D ( 'NONE', #51, #167, #146 ) ;
#70 = EDGE_LOOP ( 'NONE', ( #199, #52, #122, #120 ) ) ;
#71 = LINE ( 'NONE', #136, #92 ) ;
#72 = PRODUCT_DEFINITION_SHAPE ( 'NONE', 'NONE',  #35 ) ;
#73 = DIRECTION ( 'NONE',  ( 0.000000000000000000, -0.000000000000000000, 1.000000000000000000 ) ) ;
#74 = LINE ( 'NONE', #213, #194 ) ;
#75 = DIRECTION ( 'NONE',  ( 0.9997365420942113667, 0.02295313489502040852, 0.000000000000000000 ) ) ;
#76 = PRODUCT_DEFINITION_SHAPE ( 'NONE', 'NONE',  #202 ) ;
#77 = CARTESIAN_POINT ( 'NONE',  ( 0.000000000000000000, 0.000000000000000000, 50.00000000000000000 ) ) ;
#78 = DIRECTION ( 'NONE',  ( 0.000000000000000000, 1.000000000000000000, 0.000000000000000000 ) ) ;
#79 =( GEOMETRIC_REPRESENTATION_CONTEXT ( 3 ) GLOBAL_UNCERTAINTY_ASSIGNED_CONTEXT ( ( #181 ) ) GLOBAL_UNIT_ASSIGNED_CONTEXT ( ( #84, #81, #165 ) ) REPRESENTATION_CONTEXT ( 'NONE', 'WORKASPACE' ) );
#80 = PRODUCT ( 'FSM_Klemmensteg_unten_rechts^Florida 6 SP F.Matte Modular_L_Version', 'FSM_Klemmensteg_unten_rechts^Florida 6 SP F.Matte Modular_L_Version', '', ( #172 ) ) ;
#81 =( NAMED_UNIT ( * ) PLANE_ANGLE_UNIT ( ) SI_UNIT ( $, .RADIAN. ) );
#82 = SHAPE_DEFINITION_REPRESENTATION ( #76, #164 ) ;
#83 = VECTOR ( 'NONE', #63, 1000.000000000000000 ) ;
#84 =( LENGTH_UNIT ( ) NAMED_UNIT ( * ) SI_UNIT ( .MILLI., .METRE. ) );
#85 = ORIENTED_EDGE ( 'NONE', *, *, #109, .F. ) ;
#86 = LINE ( 'NONE', #66, #144 ) ;
#87 = AXIS2_PLACEMENT_3D ( 'NONE', #123, #39, #108 ) ;
#88 = FACE_OUTER_BOUND ( 'NONE', #55, .T. ) ;
#89 = CARTESIAN_POINT ( 'NONE',  ( 0.000000000000000000, 0.000000000000000000, 0.000000000000000000 ) ) ;
#90 = PLANE ( 'NONE',  #87 ) ;
#91 = CARTESIAN_POINT ( 'NONE',  ( 0.000000000000000000, 64.00000000000000000, 0.000000000000000000 ) ) ;
#92 = VECTOR ( 'NONE', #1, 1000.000000000000000 ) ;
#93 = ORIENTED_EDGE ( 'NONE', *, *, #211, .T. ) ;
#94 =( NAMED_UNIT ( * ) PLANE_ANGLE_UNIT ( ) SI_UNIT ( $, .RADIAN. ) );
#95 = CARTESIAN_POINT ( 'NONE',  ( 391.9999999999954525, 73.00000000000000000, 50.00000000000000000 ) ) ;
#96 = PRODUCT ( 'FSM_Klemmensteg_unten_rechts', 'FSM_Klemmensteg_unten_rechts', '', ( #183 ) ) ;
#97 = FACE_OUTER_BOUND ( 'NONE', #206, .T. ) ;
#98 = LINE ( 'NONE', #62, #83 ) ;
#99 = PRODUCT_DEFINITION_CONTEXT ( 'detailed design', #56, 'design' ) ;
#100 = DIRECTION ( 'NONE',  ( 0.9997365420942113667, 0.02295313489502040852, 0.000000000000000000 ) ) ;
#101 = AXIS2_PLACEMENT_3D ( 'NONE', #148, #198, #221 ) ;
#102 = APPLICATION_PROTOCOL_DEFINITION ( 'draft international standard', 'automotive_design', 1998, #14 ) ;
#103 = SHAPE_DEFINITION_REPRESENTATION ( #72, #61 ) ;
#104 = ORIENTED_EDGE ( 'NONE', *, *, #171, .F. ) ;
#105 = ADVANCED_FACE ( 'NONE', ( #203 ), #90, .T. ) ;
#106 = ORIENTED_EDGE ( 'NONE', *, *, #49, .T. ) ;
#107 = PRESENTATION_LAYER_ASSIGNMENT (  '', '', ( #216 ) ) ;
#108 = DIRECTION ( 'NONE',  ( 0.000000000000000000, -0.000000000000000000, -1.000000000000000000 ) ) ;
#109 = EDGE_CURVE ( 'NONE', #188, #149, #5, .T. ) ;
#110 = DIRECTION ( 'NONE',  ( 0.000000000000000000, 0.000000000000000000, 1.000000000000000000 ) ) ;
#111 = ORIENTED_EDGE ( 'NONE', *, *, #217, .F. ) ;
#112 = LINE ( 'NONE', #153, #121 ) ;
#113 = DIRECTION ( 'NONE',  ( 1.000000000000000000, 0.000000000000000000, -0.000000000000000000 ) ) ;
#114 = CARTESIAN_POINT ( 'NONE',  ( 0.000000000000000000, 0.000000000000000000, 0.000000000000000000 ) ) ;
#115 = DIRECTION ( 'NONE',  ( -0.000000000000000000, -0.000000000000000000, -1.000000000000000000 ) ) ;
#116 = DIRECTION ( 'NONE',  ( 1.000000000000000000, 0.000000000000000000, 0.000000000000000000 ) ) ;
#117 = VECTOR ( 'NONE', #100, 1000.000000000000114 ) ;
#118 = DIRECTION ( 'NONE',  ( 0.000000000000000000, 0.000000000000000000, 1.000000000000000000 ) ) ;
#119 =( NAMED_UNIT ( * ) SI_UNIT ( $, .STERADIAN. ) SOLID_ANGLE_UNIT ( ) );
#120 = ORIENTED_EDGE ( 'NONE', *, *, #37, .T. ) ;
#121 = VECTOR ( 'NONE', #208, 1000.000000000000000 ) ;
#122 = ORIENTED_EDGE ( 'NONE', *, *, #154, .T. ) ;
#123 = CARTESIAN_POINT ( 'NONE',  ( 391.9999999999954525, 0.000000000000000000, 50.00000000000000000 ) ) ;
#124 = EDGE_CURVE ( 'NONE', #222, #18, #86, .T. ) ;
#125 = ORIENTED_EDGE ( 'NONE', *, *, #124, .T. ) ;
#126 = EDGE_LOOP ( 'NONE', ( #3, #19, #106, #6 ) ) ;
#127 = PLANE ( 'NONE',  #200 ) ;
#128 = CARTESIAN_POINT ( 'NONE',  ( 0.000000000000000000, 0.000000000000000000, 0.000000000000000000 ) ) ;
#129 = FACE_OUTER_BOUND ( 'NONE', #70, .T. ) ;
#130 = PRODUCT_DEFINITION_FORMATION_WITH_SPECIFIED_SOURCE ( 'ANY', '', #80, .NOT_KNOWN. ) ;
#131 = DIRECTION ( 'NONE',  ( -0.000000000000000000, -0.000000000000000000, -1.000000000000000000 ) ) ;
#132 = SHAPE_REPRESENTATION_RELATIONSHIP ( 'NONE' , 'NONE' ,  #164, #32 ) ;
#133 = ORIENTED_EDGE ( 'NONE', *, *, #159, .T. ) ;
#134 = APPLICATION_PROTOCOL_DEFINITION ( 'draft international standard', 'automotive_design', 1998, #191 ) ;
#135 = VECTOR ( 'NONE', #75, 1000.000000000000114 ) ;
#136 = CARTESIAN_POINT ( 'NONE',  ( 0.000000000000000000, 0.000000000000000000, 50.00000000000000000 ) ) ;
#137 = VERTEX_POINT ( 'NONE', #10 ) ;
#138 = ORIENTED_EDGE ( 'NONE', *, *, #171, .T. ) ;
#139 = CARTESIAN_POINT ( 'NONE',  ( 0.000000000000000000, 0.000000000000000000, 50.00000000000000000 ) ) ;
#140 = CARTESIAN_POINT ( 'NONE',  ( 391.9999999999954525, 0.000000000000000000, 50.00000000000000000 ) ) ;
#141 = LINE ( 'NONE', #95, #168 ) ;
#142 = FILL_AREA_STYLE ('',( #182 ) ) ;
#143 = DIRECTION ( 'NONE',  ( -0.9997365420942113667, -0.02295313489502040505, 0.000000000000000000 ) ) ;
#144 = VECTOR ( 'NONE', #78, 1000.000000000000000 ) ;
#145 =( GEOMETRIC_REPRESENTATION_CONTEXT ( 3 ) GLOBAL_UNCERTAINTY_ASSIGNED_CONTEXT ( ( #46 ) ) GLOBAL_UNIT_ASSIGNED_CONTEXT ( ( #24, #94, #119 ) ) REPRESENTATION_CONTEXT ( 'NONE', 'WORKASPACE' ) );
#146 = DIRECTION ( 'NONE',  ( 1.000000000000000000, 0.000000000000000000, 0.000000000000000000 ) ) ;
#147 = DIRECTION ( 'NONE',  ( 0.000000000000000000, 0.000000000000000000, 1.000000000000000000 ) ) ;
#148 = CARTESIAN_POINT ( 'NONE',  ( -168.0000000000003695, -24.99999999999495870, -259.0000000000011937 ) ) ;
#149 = VERTEX_POINT ( 'NONE', #44 ) ;
#150 = PLANE ( 'NONE',  #215 ) ;
#151 = PRODUCT_DEFINITION_SHAPE ( 'NONE', 'NONE',  #224 ) ;
#152 = DIRECTION ( 'NONE',  ( 1.000000000000000000, 0.000000000000000000, -0.000000000000000000 ) ) ;
#153 = CARTESIAN_POINT ( 'NONE',  ( 391.9999999999954525, 0.000000000000000000, 50.00000000000000000 ) ) ;
#154 = EDGE_CURVE ( 'NONE', #137, #223, #195, .T. ) ;
#155 = CARTESIAN_POINT ( 'NONE',  ( 0.000000000000000000, 0.000000000000000000, 50.00000000000000000 ) ) ;
#156 = ADVANCED_FACE ( 'NONE', ( #161 ), #11, .T. ) ;
#157 = SURFACE_SIDE_STYLE ('',( #31 ) ) ;
#158 = DIRECTION ( 'NONE',  ( 0.000000000000000000, -0.000000000000000000, 1.000000000000000000 ) ) ;
#159 = EDGE_CURVE ( 'NONE', #18, #188, #214, .T. ) ;
#160 = DIRECTION ( 'NONE',  ( 0.000000000000000000, -1.000000000000000000, 0.000000000000000000 ) ) ;
#161 = FACE_OUTER_BOUND ( 'NONE', #38, .T. ) ;
#162 = PRESENTATION_STYLE_ASSIGNMENT (( #212 ) ) ;
#163 = APPLICATION_PROTOCOL_DEFINITION ( 'draft international standard', 'automotive_design', 1998, #23 ) ;
#164 = SHAPE_REPRESENTATION ( 'FSM_Klemmensteg_unten_rechts^Florida 6 SP F.Matte Modular_L_Version', ( #69 ), #145 ) ;
#165 =( NAMED_UNIT ( * ) SI_UNIT ( $, .STERADIAN. ) SOLID_ANGLE_UNIT ( ) );
#166 = ADVANCED_FACE ( 'NONE', ( #97 ), #47, .F. ) ;
#167 = DIRECTION ( 'NONE',  ( 0.000000000000000000, 0.000000000000000000, 1.000000000000000000 ) ) ;
#168 = VECTOR ( 'NONE', #160, 1000.000000000000000 ) ;
#169 = AXIS2_PLACEMENT_3D ( 'NONE', #114, #158, #45 ) ;
#170 = DIRECTION ( 'NONE',  ( -1.000000000000000000, 0.000000000000000000, 0.000000000000000000 ) ) ;
#171 = EDGE_CURVE ( 'NONE', #54, #137, #98, .T. ) ;
#172 = PRODUCT_CONTEXT ( 'NONE', #14, 'mechanical' ) ;
#173 = DIRECTION ( 'NONE',  ( 0.000000000000000000, -1.000000000000000000, 0.000000000000000000 ) ) ;
#174 = CARTESIAN_POINT ( 'NONE',  ( 391.9999999999954525, 73.00000000000000000, 50.00000000000000000 ) ) ;
#175 = PRODUCT_RELATED_PRODUCT_CATEGORY ( 'part', '', ( #80 ) ) ;
#176 = LINE ( 'NONE', #174, #50 ) ;
#177 = AXIS2_PLACEMENT_3D ( 'NONE', #89, #118, #205 ) ;
#178 = CARTESIAN_POINT ( 'NONE',  ( 391.9999999999954525, 73.00000000000000000, 50.00000000000000000 ) ) ;
#179 = PLANE ( 'NONE',  #8 ) ;
#180 = DIRECTION ( 'NONE',  ( -0.02295313489502040852, 0.9997365420942114778, 0.000000000000000000 ) ) ;
#181 = UNCERTAINTY_MEASURE_WITH_UNIT (LENGTH_MEASURE( 1.000000000000000082E-05 ), #84, 'distance_accuracy_value', 'NONE');
#182 = FILL_AREA_STYLE_COLOUR ( '', #36 ) ;
#183 = PRODUCT_CONTEXT ( 'NONE', #191, 'mechanical' ) ;
#184 = VECTOR ( 'NONE', #170, 1000.000000000000000 ) ;
#185 = ORIENTED_EDGE ( 'NONE', *, *, #12, .F. ) ;
#186 = CLOSED_SHELL ( 'NONE', ( #29, #105, #65, #197, #156, #166 ) ) ;
#187 =( GEOMETRIC_REPRESENTATION_CONTEXT ( 3 ) GLOBAL_UNCERTAINTY_ASSIGNED_CONTEXT ( ( #28 ) ) GLOBAL_UNIT_ASSIGNED_CONTEXT ( ( #13, #218, #64 ) ) REPRESENTATION_CONTEXT ( 'NONE', 'WORKASPACE' ) );
#188 = VERTEX_POINT ( 'NONE', #60 ) ;
#189 = ORIENTED_EDGE ( 'NONE', *, *, #207, .T. ) ;
#190 = ORIENTED_EDGE ( 'NONE', *, *, #2, .T. ) ;
#191 = APPLICATION_CONTEXT ( 'automotive_design' ) ;
#192 = ORIENTED_EDGE ( 'NONE', *, *, #124, .F. ) ;
#193 = CARTESIAN_POINT ( 'NONE',  ( 391.9999999999954525, 73.00000000000000000, 50.00000000000000000 ) ) ;
#194 = VECTOR ( 'NONE', #115, 1000.000000000000000 ) ;
#195 = LINE ( 'NONE', #27, #135 ) ;
#196 = CARTESIAN_POINT ( 'NONE',  ( 0.000000000000000000, 0.000000000000000000, 0.000000000000000000 ) ) ;
#197 = ADVANCED_FACE ( 'NONE', ( #129 ), #179, .T. ) ;
#198 = DIRECTION ( 'NONE',  ( 1.396592535537253342E-14, 1.000000000000000000, 1.047444401652940007E-14 ) ) ;
#199 = ORIENTED_EDGE ( 'NONE', *, *, #159, .F. ) ;
#200 = AXIS2_PLACEMENT_3D ( 'NONE', #193, #152, #67 ) ;
#201 = AXIS2_PLACEMENT_3D ( 'NONE', #196, #147, #116 ) ;
#202 = PRODUCT_DEFINITION ( 'UNKNOWN', '', #130, #42 ) ;
#203 = FACE_OUTER_BOUND ( 'NONE', #126, .T. ) ;
#204 = DIRECTION ( 'NONE',  ( -1.000000000000000000, 0.000000000000000000, 0.000000000000000000 ) ) ;
#205 = DIRECTION ( 'NONE',  ( 1.000000000000000000, 0.000000000000000000, 0.000000000000000000 ) ) ;
#206 = EDGE_LOOP ( 'NONE', ( #125, #133, #68, #190 ) ) ;
#207 = EDGE_CURVE ( 'NONE', #137, #18, #26, .T. ) ;
#208 = DIRECTION ( 'NONE',  ( -1.000000000000000000, 0.000000000000000000, 0.000000000000000000 ) ) ;
#209 = ORIENTED_EDGE ( 'NONE', *, *, #37, .F. ) ;
#210 = AXIS2_PLACEMENT_3D ( 'NONE', #77, #73, #113 ) ;
#211 = EDGE_CURVE ( 'NONE', #16, #149, #74, .T. ) ;
#212 = SURFACE_STYLE_USAGE ( .BOTH. , #157 ) ;
#213 = CARTESIAN_POINT ( 'NONE',  ( 391.9999999999954525, 0.000000000000000000, 50.00000000000000000 ) ) ;
#214 = LINE ( 'NONE', #30, #117 ) ;
#215 = AXIS2_PLACEMENT_3D ( 'NONE', #139, #204, #110 ) ;
#216 = STYLED_ITEM ( 'NONE', ( #162 ), #219 ) ;
#217 = EDGE_CURVE ( 'NONE', #223, #16, #141, .T. ) ;
#218 =( NAMED_UNIT ( * ) PLANE_ANGLE_UNIT ( ) SI_UNIT ( $, .RADIAN. ) );
#219 = MANIFOLD_SOLID_BREP ( 'Aufsatz-Linear austragen1', #186 ) ;
#220 = ITEM_DEFINED_TRANSFORMATION ( 'NONE', 'NONE', #101,  #69 ) ;
#221 = DIRECTION ( 'NONE',  ( 1.000000000000000000, -1.396592535537253342E-14, -1.462853032738780738E-28 ) ) ;
#222 = VERTEX_POINT ( 'NONE', #128 ) ;
#223 = VERTEX_POINT ( 'NONE', #178 ) ;
#224 = NEXT_ASSEMBLY_USAGE_OCCURRENCE ( 'NAUO1', ' ', ' ', #35, #202, $ ) ;
ENDSEC;
END-ISO-10303-21;
